  0
SECTION
  2
HEADER
  9
$ACADVER
  1
AC1015
  9
$ACADMAINTVER
 70
     6
  9
$DWGCODEPAGE
  3
ANSI_1254
  9
$INSBASE
 10
0.0
 20
0.0
 30
0.0
  9
$EXTMIN
 10
0.0
 20
0.0
 30
0.0
  9
$EXTMAX
 10
279.4
 20
215.9
 30
0.0
  9
$LIMMIN
 10
0.0
 20
0.0
  9
$LIMMAX
 10
279.4
 20
215.9
  9
$ORTHOMODE
 70
     0
  9
$REGENMODE
 70
     1
  9
$FILLMODE
 70
     1
  9
$QTEXTMODE
 70
     0
  9
$MIRRTEXT
 70
     1
  9
$LTSCALE
 40
1.0
  9
$ATTMODE
 70
     1
  9
$TEXTSIZE
 40
3.5
  9
$TRACEWID
 40
1.0
  9
$TEXTSTYLE
  7
Standard
  9
$CLAYER
  8
0
  9
$CELTYPE
  6
ByLayer
  9
$CECOLOR
 62
   256
  9
$CELTSCALE
 40
1.0
  9
$DISPSILH
 70
     0
  9
$DIMSCALE
 40
1.0
  9
$DIMASZ
 40
3.5
  9
$DIMEXO
 40
1.0
  9
$DIMDLI
 40
3.75
  9
$DIMRND
 40
0.0
  9
$DIMDLE
 40
0.0
  9
$DIMEXE
 40
1.0
  9
$DIMTP
 40
0.0
  9
$DIMTM
 40
0.0
  9
$DIMTXT
 40
3.5
  9
$DIMCEN
 40
2.5
  9
$DIMTSZ
 40
0.0
  9
$DIMTOL
 70
     0
  9
$DIMLIM
 70
     0
  9
$DIMTIH
 70
     1
  9
$DIMTOH
 70
     1
  9
$DIMSE1
 70
     0
  9
$DIMSE2
 70
     0
  9
$DIMTAD
 70
     1
  9
$DIMZIN
 70
     0
  9
$DIMBLK
  1

  9
$DIMASO
 70
     1
  9
$DIMSHO
 70
     1
  9
$DIMPOST
  1

  9
$DIMAPOST
  1

  9
$DIMALT
 70
     0
  9
$DIMALTD
 70
     3
  9
$DIMALTF
 40
0.0393700787
  9
$DIMLFAC
 40
1.0
  9
$DIMTOFL
 70
     1
  9
$DIMTVP
 40
0.0
  9
$DIMTIX
 70
     0
  9
$DIMSOXD
 70
     0
  9
$DIMSAH
 70
     0
  9
$DIMBLK1
  1

  9
$DIMBLK2
  1

  9
$DIMSTYLE
  2
ISO-25
  9
$DIMCLRD
 70
     0
  9
$DIMCLRE
 70
     0
  9
$DIMCLRT
 70
     0
  9
$DIMTFAC
 40
1.0
  9
$DIMGAP
 40
1.524
  9
$DIMJUST
 70
     0
  9
$DIMSD1
 70
     0
  9
$DIMSD2
 70
     0
  9
$DIMTOLJ
 70
     0
  9
$DIMTZIN
 70
     0
  9
$DIMALTZ
 70
     0
  9
$DIMALTTZ
 70
     0
  9
$DIMUPT
 70
     0
  9
$DIMDEC
 70
     2
  9
$DIMTDEC
 70
     2
  9
$DIMALTU
 70
     2
  9
$DIMALTTD
 70
     3
  9
$DIMTXSTY
  7
Standard
  9
$DIMAUNIT
 70
     0
  9
$DIMADEC
 70
     2
  9
$DIMALTRND
 40
0.0
  9
$DIMAZIN
 70
     0
  9
$DIMDSEP
 70
    44
  9
$DIMATFIT
 70
     3
  9
$DIMFRAC
 70
     0
  9
$DIMLDRBLK
  1

  9
$DIMLUNIT
 70
     2
  9
$DIMLWD
 70
    -2
  9
$DIMLWE
 70
    -2
  9
$DIMTMOVE
 70
     0
  9
$LUNITS
 70
     2
  9
$LUPREC
 70
     2
  9
$SKETCHINC
 40
1.0
  9
$FILLETRAD
 40
10.0
  9
$AUNITS
 70
     0
  9
$AUPREC
 70
     2
  9
$MENU
  1
.
  9
$ELEVATION
 40
0.0
  9
$PELEVATION
 40
0.0
  9
$THICKNESS
 40
0.0
  9
$LIMCHECK
 70
     0
  9
$CHAMFERA
 40
0.0
  9
$CHAMFERB
 40
0.0
  9
$CHAMFERC
 40
0.0
  9
$CHAMFERD
 40
0.0
  9
$SKPOLY
 70
     0
  9
$TDCREATE
 40
2458985.651022245
  9
$TDUCREATE
 40
2458985.526022245
  9
$TDUPDATE
 40
2458985.651022523
  9
$TDUUPDATE
 40
2458985.526022523
  9
$TDINDWG
 40
0.0000000116
  9
$TDUSRTIMER
 40
0.0000000116
  9
$USRTIMER
 70
     1
  9
$ANGBASE
 50
0.0
  9
$ANGDIR
 70
     0
  9
$PDMODE
 70
     0
  9
$PDSIZE
 40
-1.0
  9
$PLINEWID
 40
0.0
  9
$SPLFRAME
 70
     0
  9
$SPLINETYPE
 70
     6
  9
$SPLINESEGS
 70
     8
  9
$HANDSEED
  5
CC
  9
$SURFTAB1
 70
     6
  9
$SURFTAB2
 70
     6
  9
$SURFTYPE
 70
     6
  9
$SURFU
 70
     6
  9
$SURFV
 70
     6
  9
$UCSBASE
  2

  9
$UCSNAME
  2

  9
$UCSORG
 10
0.0
 20
0.0
 30
0.0
  9
$UCSXDIR
 10
1.0
 20
0.0
 30
0.0
  9
$UCSYDIR
 10
0.0
 20
1.0
 30
0.0
  9
$UCSORTHOREF
  2

  9
$UCSORTHOVIEW
 70
     0
  9
$UCSORGTOP
 10
0.0
 20
0.0
 30
0.0
  9
$UCSORGBOTTOM
 10
0.0
 20
0.0
 30
0.0
  9
$UCSORGLEFT
 10
0.0
 20
0.0
 30
0.0
  9
$UCSORGRIGHT
 10
0.0
 20
0.0
 30
0.0
  9
$UCSORGFRONT
 10
0.0
 20
0.0
 30
0.0
  9
$UCSORGBACK
 10
0.0
 20
0.0
 30
0.0
  9
$PUCSBASE
  2

  9
$PUCSNAME
  2

  9
$PUCSORG
 10
0.0
 20
0.0
 30
0.0
  9
$PUCSXDIR
 10
1.0
 20
0.0
 30
0.0
  9
$PUCSYDIR
 10
0.0
 20
1.0
 30
0.0
  9
$PUCSORTHOREF
  2

  9
$PUCSORTHOVIEW
 70
     0
  9
$PUCSORGTOP
 10
0.0
 20
0.0
 30
0.0
  9
$PUCSORGBOTTOM
 10
0.0
 20
0.0
 30
0.0
  9
$PUCSORGLEFT
 10
0.0
 20
0.0
 30
0.0
  9
$PUCSORGRIGHT
 10
0.0
 20
0.0
 30
0.0
  9
$PUCSORGFRONT
 10
0.0
 20
0.0
 30
0.0
  9
$PUCSORGBACK
 10
0.0
 20
0.0
 30
0.0
  9
$USERI1
 70
     0
  9
$USERI2
 70
     0
  9
$USERI3
 70
     0
  9
$USERI4
 70
     0
  9
$USERI5
 70
     0
  9
$USERR1
 40
0.0
  9
$USERR2
 40
0.0
  9
$USERR3
 40
0.0
  9
$USERR4
 40
0.0
  9
$USERR5
 40
0.0
  9
$WORLDVIEW
 70
     1
  9
$SHADEDGE
 70
     3
  9
$SHADEDIF
 70
    70
  9
$TILEMODE
 70
     1
  9
$MAXACTVP
 70
    64
  9
$PINSBASE
 10
0.0
 20
0.0
 30
0.0
  9
$PLIMCHECK
 70
     0
  9
$PEXTMIN
 10
1.0000000000E+20
 20
1.0000000000E+20
 30
1.0000000000E+20
  9
$PEXTMAX
 10
-1.0000000000E+20
 20
-1.0000000000E+20
 30
-1.0000000000E+20
  9
$PLIMMIN
 10
0.0
 20
0.0
  9
$PLIMMAX
 10
420.0
 20
297.0
  9
$UNITMODE
 70
     0
  9
$VISRETAIN
 70
     1
  9
$PLINEGEN
 70
     0
  9
$PSLTSCALE
 70
     1
  9
$TREEDEPTH
 70
  3020
  9
$CMLSTYLE
  2
Standard
  9
$CMLJUST
 70
     0
  9
$CMLSCALE
 40
20.0
  9
$PROXYGRAPHICS
 70
     1
  9
$MEASUREMENT
 70
     1
  9
$CELWEIGHT
370
    -1
  9
$ENDCAPS
280
     0
  9
$JOINSTYLE
280
     0
  9
$LWDISPLAY
290
     1
  9
$INSUNITS
 70
     4
  9
$HYPERLINKBASE
  1

  9
$STYLESHEET
  1

  9
$XEDIT
290
     1
  9
$CEPSNTYPE
380
     0
  9
$PSTYLEMODE
290
     1
  9
$FINGERPRINTGUID
  2
{aaeefdf8-cd24-4209-8eea-5388fc0ae3da}
  9
$VERSIONGUID
  2
{FAEB1C32-E019-11D5-929B-00C0DF256EC4}
  9
$EXTNAMES
290
     1
  9
$PSVPSCALE
 40
0.0
  9
$OLESTARTUP
290
     0
  0
ENDSEC
  0
SECTION
  2
CLASSES
  0
CLASS
  1
ACDBDICTIONARYWDFLT
  2
AcDbDictionaryWithDefault
  3
ObjectDBX Classes
 90
        0
280
     0
281
     0
  0
CLASS
  1
VISUALSTYLE
  2
AcDbVisualStyle
  3
ObjectDBX Classes
 90
     4095
280
     0
281
     0
  0
CLASS
  1
MATERIAL
  2
AcDbMaterial
  3
ObjectDBX Classes
 90
     1153
280
     0
281
     0
  0
CLASS
  1
SCALE
  2
AcDbScale
  3
ObjectDBX Classes
 90
     1153
280
     0
281
     0
  0
CLASS
  1
TABLESTYLE
  2
AcDbTableStyle
  3
ObjectDBX Classes
 90
     4095
280
     0
281
     0
  0
CLASS
  1
MLEADERSTYLE
  2
AcDbMLeaderStyle
  3
ACDB_MLEADERSTYLE_CLASS
 90
     4095
280
     0
281
     0
  0
CLASS
  1
SUN
  2
AcDbSun
  3
SCENEOE
 90
     1153
280
     0
281
     0
  0
CLASS
  1
ACDBPLACEHOLDER
  2
AcDbPlaceHolder
  3
ObjectDBX Classes
 90
        0
280
     0
281
     0
  0
CLASS
  1
LAYOUT
  2
AcDbLayout
  3
ObjectDBX Classes
 90
        0
280
     0
281
     0
  0
ENDSEC
  0
SECTION
  2
TABLES
  0
TABLE
  2
VPORT
  5
8
330
0
100
AcDbSymbolTable
 70
     1
  0
VPORT
  5
29
330
8
100
AcDbSymbolTableRecord
100
AcDbViewportTableRecord
  2
*Active
 70
     0
 10
0.0
 20
0.0
 11
1.0
 21
1.0
 12
139.7
 22
107.95
 13
0.0
 23
0.0
 14
10.0
 24
10.0
 15
10.0
 25
10.0
 16
0.0
 26
0.0
 36
1.0
 17
0.0
 27
0.0
 37
0.0
 40
215.9
 41
1.2941176471
 42
50.0
 43
0.0
 44
0.0
 50
0.0
 51
0.0
 71
     0
 72
  2000
 73
     1
 74
     3
 75
     0
 76
     0
 77
     0
 78
     0
281
     0
 65
     1
110
0.0
120
0.0
130
0.0
111
1.0
121
0.0
131
0.0
112
0.0
122
1.0
132
0.0
 79
     0
146
0.0
  0
ENDTAB
  0
TABLE
  2
LTYPE
  5
5
330
0
100
AcDbSymbolTable
 70
     6
  0
LTYPE
  5
14
330
5
100
AcDbSymbolTableRecord
100
AcDbLinetypeTableRecord
  2
ByBlock
 70
     0
  3

 72
    65
 73
     0
 40
0.0
  0
LTYPE
  5
15
330
5
100
AcDbSymbolTableRecord
100
AcDbLinetypeTableRecord
  2
ByLayer
 70
     0
  3

 72
    65
 73
     0
 40
0.0
  0
LTYPE
  5
16
330
5
100
AcDbSymbolTableRecord
100
AcDbLinetypeTableRecord
  2
Continuous
 70
     0
  3
Solid line
 72
    65
 73
     0
 40
0.0
  0
LTYPE
  5
6E
330
5
100
AcDbSymbolTableRecord
100
AcDbLinetypeTableRecord
  2
HIDDEN
 70
     0
  3
Hidden __ __ __ __ __ __ __ __ __ __ __ __ __ __
 72
    65
 73
     2
 40
1.905
 49
1.27
 74
     0
 49
-0.635
 74
     0
  0
LTYPE
  5
6F
330
5
100
AcDbSymbolTableRecord
100
AcDbLinetypeTableRecord
  2
PHANTOM
 70
     0
  3
Phantom ______  __  __  ______  __  __  ______
 72
    65
 73
     6
 40
12.7
 49
6.35
 74
     0
 49
-1.27
 74
     0
 49
1.27
 74
     0
 49
-1.27
 74
     0
 49
1.27
 74
     0
 49
-1.27
 74
     0
  0
LTYPE
  5
70
330
5
100
AcDbSymbolTableRecord
100
AcDbLinetypeTableRecord
  2
CENTER
 70
     0
  3
Center ____ _ ____ _ ____ _ ____ _ ____ _ ____
 72
    65
 73
     4
 40
10.16
 49
6.35
 74
     0
 49
-1.27
 74
     0
 49
1.27
 74
     0
 49
-1.27
 74
     0
  0
LTYPE
  5
71
330
5
100
AcDbSymbolTableRecord
100
AcDbLinetypeTableRecord
  2
CENTERX2
 70
     0
  3
Center (2x) ________  __  ________  __  _____
 72
    65
 73
     4
 40
20.32
 49
12.7
 74
     0
 49
-2.54
 74
     0
 49
2.54
 74
     0
 49
-2.54
 74
     0
  0
LTYPE
  5
72
330
5
100
AcDbSymbolTableRecord
100
AcDbLinetypeTableRecord
  2
DOT2
 70
     0
  3
Dot (.5x) ........................................
 72
    65
 73
     2
 40
0.635
 49
0.0
 74
     0
 49
-0.635
 74
     0
  0
ENDTAB
  0
TABLE
  2
LAYER
  5
2
330
0
100
AcDbSymbolTable
 70
    17
  0
LAYER
  5
10
330
2
100
AcDbSymbolTableRecord
100
AcDbLayerTableRecord
  2
0
 70
     0
 62
     7
  6
Continuous
370
    -3
390
F
  0
LAYER
  5
73
330
2
100
AcDbSymbolTableRecord
100
AcDbLayerTableRecord
  2
FORMAT
 70
     0
 62
     7
  6
Continuous
370
    -3
390
F
  0
LAYER
  5
74
330
2
100
AcDbSymbolTableRecord
100
AcDbLayerTableRecord
  2
YARDIMCI_GEOMETRI
 70
     0
 62
    -6
  6
Continuous
290
     0
370
    -3
390
F
  0
LAYER
  5
75
330
2
100
AcDbSymbolTableRecord
100
AcDbLayerTableRecord
  2
SAYFA_CERCEVESI
 70
     0
 62
     7
  6
Continuous
370
    25
390
F
  0
LAYER
  5
76
330
2
100
AcDbSymbolTableRecord
100
AcDbLayerTableRecord
  2
ANTET
 70
     0
 62
     7
  6
Continuous
370
    -3
390
F
  0
LAYER
  5
77
330
2
100
AcDbSymbolTableRecord
100
AcDbLayerTableRecord
  2
OLCU
 70
     0
 62
   150
  6
Continuous
370
    -3
390
F
  0
LAYER
  5
78
330
2
100
AcDbSymbolTableRecord
100
AcDbLayerTableRecord
  2
METIN
 70
     0
 62
    96
  6
Continuous
370
    -3
390
F
  0
LAYER
  5
79
330
2
100
AcDbSymbolTableRecord
100
AcDbLayerTableRecord
  2
BALON
 70
     0
 62
     5
  6
Continuous
370
    -3
390
F
  0
LAYER
  5
7A
330
2
100
AcDbSymbolTableRecord
100
AcDbLayerTableRecord
  2
VURGU
 70
     0
 62
     7
  6
Continuous
370
    -3
390
F
  0
LAYER
  5
7B
330
2
100
AcDbSymbolTableRecord
100
AcDbLayerTableRecord
  2
SILIK
 70
     0
 62
     7
  6
Continuous
370
    -3
390
F
  0
LAYER
  5
7C
330
2
100
AcDbSymbolTableRecord
100
AcDbLayerTableRecord
  2
MODEL
 70
     0
 62
     7
  6
Continuous
370
    -3
390
F
  0
LAYER
  5
7D
330
2
100
AcDbSymbolTableRecord
100
AcDbLayerTableRecord
  2
DETAYLANDıRMA
 70
     0
 62
   190
  6
Continuous
370
    -3
390
F
  0
LAYER
  5
7E
330
2
100
AcDbSymbolTableRecord
100
AcDbLayerTableRecord
  2
TOLERANS
 70
     0
 62
   230
  6
Continuous
370
    -3
390
F
  0
LAYER
  5
7F
330
2
100
AcDbSymbolTableRecord
100
AcDbLayerTableRecord
  2
MERKEZ_CIZGILERI
 70
     0
 62
    30
  6
Continuous
370
    -3
390
F
  0
LAYER
  5
80
330
2
100
AcDbSymbolTableRecord
100
AcDbLayerTableRecord
  2
KESIT-DETAY_CIZGILERI
 70
     0
 62
     7
  6
Continuous
370
    -3
390
F
  0
LAYER
  5
81
330
2
100
AcDbSymbolTableRecord
100
AcDbLayerTableRecord
  2
\U+041E\U+0421\U+0415\U+0412\U+042B\U+0415
 70
     0
 62
     7
  6
Continuous
370
    -3
390
F
  0
LAYER
  5
82
330
2
100
AcDbSymbolTableRecord
100
AcDbLayerTableRecord
  2
\U+0412\U+041E\U+0414\U+042F\U+041D\U+042B\U+0415_\U+0417\U+041D\U+0410\U+041A\U+0418
 70
     0
 62
    11
  6
Continuous
370
    -3
390
F
  0
ENDTAB
  0
TABLE
  2
STYLE
  5
3
330
0
100
AcDbSymbolTable
 70
     1
  0
STYLE
  5
11
330
3
100
AcDbSymbolTableRecord
100
AcDbTextStyleTableRecord
  2
Standard
 70
     0
 40
0.0
 41
1.0
 50
0.0
 71
     0
 42
3.5
  3
txt
  4

  0
ENDTAB
  0
TABLE
  2
VIEW
  5
6
330
0
100
AcDbSymbolTable
 70
     0
  0
ENDTAB
  0
TABLE
  2
UCS
  5
7
330
0
100
AcDbSymbolTable
 70
     0
  0
ENDTAB
  0
TABLE
  2
APPID
  5
9
330
0
100
AcDbSymbolTable
 70
     1
  0
APPID
  5
12
330
9
100
AcDbSymbolTableRecord
100
AcDbRegAppTableRecord
  2
ACAD
 70
     0
  0
ENDTAB
  0
TABLE
  2
DIMSTYLE
  5
A
330
0
100
AcDbSymbolTable
 70
     1
100
AcDbDimStyleTable
  0
DIMSTYLE
105
27
330
A
100
AcDbSymbolTableRecord
100
AcDbDimStyleTableRecord
  2
ISO-25
 70
     0
 41
2.5
 42
0.625
 43
3.75
 44
1.25
 73
     0
 74
     0
 77
     1
 78
     8
140
2.5
141
2.5
143
0.0393700787
147
0.625
171
     3
172
     1
178
     0
271
     2
272
     2
274
     3
278
    44
283
     0
284
     8
340
11
  0
ENDTAB
  0
TABLE
  2
BLOCK_RECORD
  5
1
330
0
100
AcDbSymbolTable
 70
     2
  0
BLOCK_RECORD
  5
1F
330
1
100
AcDbSymbolTableRecord
100
AcDbBlockTableRecord
  2
*Model_Space
340
22
  0
BLOCK_RECORD
  5
1B
330
1
100
AcDbSymbolTableRecord
100
AcDbBlockTableRecord
  2
*Paper_Space
340
1E
  0
BLOCK_RECORD
  5
23
330
1
100
AcDbSymbolTableRecord
100
AcDbBlockTableRecord
  2
*Paper_Space0
340
26
  0
BLOCK_RECORD
  5
87
330
1
100
AcDbSymbolTableRecord
100
AcDbBlockTableRecord
  2
SW_CENTERMARKSYMBOL_0
340
0
102
{BLKREFS
331
92
102
}
  0
ENDTAB
  0
ENDSEC
  0
SECTION
  2
BLOCKS
  0
BLOCK
  5
20
330
1F
100
AcDbEntity
  8
0
100
AcDbBlockBegin
  2
*Model_Space
 70
     0
 10
0.0
 20
0.0
 30
0.0
  3
*Model_Space
  1

  0
ENDBLK
  5
21
330
1F
100
AcDbEntity
  8
0
100
AcDbBlockEnd
  0
BLOCK
  5
1C
330
1B
100
AcDbEntity
 67
     1
  8
0
100
AcDbBlockBegin
  2
*Paper_Space
 70
     0
 10
0.0
 20
0.0
 30
0.0
  3
*Paper_Space
  1

  0
ENDBLK
  5
1D
330
1B
100
AcDbEntity
 67
     1
  8
0
100
AcDbBlockEnd
  0
BLOCK
  5
24
330
23
100
AcDbEntity
  8
0
100
AcDbBlockBegin
  2
*Paper_Space0
 70
     0
 10
0.0
 20
0.0
 30
0.0
  3
*Paper_Space0
  1

  0
ENDBLK
  5
25
330
23
100
AcDbEntity
  8
0
100
AcDbBlockEnd
  0
BLOCK
  5
88
330
87
100
AcDbEntity
  8
0
100
AcDbBlockBegin
  2
SW_CENTERMARKSYMBOL_0
 70
     0
 10
0.0
 20
0.0
 30
0.0
  3
SW_CENTERMARKSYMBOL_0
  1

  0
LINE
  5
8A
330
87
100
AcDbEntity
  8
FORMAT
 62
     0
100
AcDbLine
 10
0.0
 20
0.0
 30
0.0
 11
0.0
 21
2.5
 31
0.0
  0
LINE
  5
8B
330
87
100
AcDbEntity
  8
FORMAT
 62
     0
100
AcDbLine
 10
0.0
 20
0.0
 30
0.0
 11
-2.5
 21
0.0
 31
0.0
  0
LINE
  5
8C
330
87
100
AcDbEntity
  8
FORMAT
 62
     0
100
AcDbLine
 10
0.0
 20
0.0
 30
0.0
 11
0.0
 21
-2.5
 31
0.0
  0
LINE
  5
8D
330
87
100
AcDbEntity
  8
FORMAT
 62
     0
100
AcDbLine
 10
0.0
 20
0.0
 30
0.0
 11
2.5
 21
0.0
 31
0.0
  0
LINE
  5
8E
330
87
100
AcDbEntity
  8
FORMAT
 62
     0
100
AcDbLine
 10
0.0
 20
5.0
 30
0.0
 11
0.0
 21
72.0
 31
0.0
  0
LINE
  5
8F
330
87
100
AcDbEntity
  8
FORMAT
 62
     0
100
AcDbLine
 10
-5.0
 20
0.0
 30
0.0
 11
-72.0
 21
0.0
 31
0.0
  0
LINE
  5
90
330
87
100
AcDbEntity
  8
FORMAT
 62
     0
100
AcDbLine
 10
0.0
 20
-5.0
 30
0.0
 11
0.0
 21
-72.0
 31
0.0
  0
LINE
  5
91
330
87
100
AcDbEntity
  8
FORMAT
 62
     0
100
AcDbLine
 10
5.0
 20
0.0
 30
0.0
 11
72.0
 21
0.0
 31
0.0
  0
ENDBLK
  5
89
330
87
100
AcDbEntity
  8
0
100
AcDbBlockEnd
  0
ENDSEC
  0
SECTION
  2
ENTITIES
  0
CIRCLE
  5
83
330
1F
100
AcDbEntity
  8
0
  6
Continuous
 62
     7
370
    25
100
AcDbCircle
 10
139.0773721293
 20
105.4651535162
 30
0.0
 40
44.99999999999997
  0
CIRCLE
  5
84
330
1F
100
AcDbEntity
  8
0
  6
Continuous
 62
     7
370
    25
100
AcDbCircle
 10
139.0773721293
 20
105.4651535162
 30
0.0
 40
39.59999999999998
  0
CIRCLE
  5
85
330
1F
100
AcDbEntity
  8
0
  6
Continuous
 62
     7
370
    25
100
AcDbCircle
 10
139.0773721293
 20
105.4651535162
 30
0.0
 40
53.99999999999999
  0
CIRCLE
  5
86
330
1F
100
AcDbEntity
  8
0
  6
Continuous
 62
     7
370
    25
100
AcDbCircle
 10
139.0773721293
 20
105.4651535162
 30
0.0
 40
69.5
  0
INSERT
  5
92
330
1F
100
AcDbEntity
  8
FORMAT
 62
     7
100
AcDbBlockReference
  2
SW_CENTERMARKSYMBOL_0
 10
139.0773721293
 20
105.4651535162
 30
0.0
  0
LINE
  5
93
330
1F
100
AcDbEntity
  8
0
  6
Continuous
 62
     7
370
    25
100
AcDbLine
 10
208.5773721293
 20
212.2098877641
 30
0.0
 11
208.5773721293
 21
229.2098877641
 31
0.0
  0
LINE
  5
94
330
1F
100
AcDbEntity
  8
0
  6
Continuous
 62
     7
370
    25
100
AcDbLine
 10
69.5773721293
 20
229.2098877641
 30
0.0
 11
69.5773721293
 21
212.2098877641
 31
0.0
  0
LINE
  5
95
330
1F
100
AcDbEntity
  8
0
  6
Continuous
 62
     7
370
    25
100
AcDbLine
 10
193.0773721293
 20
229.2098877641
 30
0.0
 11
184.0773721293
 21
246.2098877641
 31
0.0
  0
LINE
  5
96
330
1F
100
AcDbEntity
  8
0
  6
Continuous
 62
     7
370
    25
100
AcDbLine
 10
94.0773721293
 20
246.2098877641
 30
0.0
 11
85.0773721293
 21
229.2098877641
 31
0.0
  0
LINE
  5
97
330
1F
100
AcDbEntity
  8
0
  6
Continuous
 62
     7
370
    25
100
AcDbLine
 10
184.0773721293
 20
246.2098877641
 30
0.0
 11
184.0773721293
 21
352.2098877641
 31
0.0
  0
LINE
  5
98
330
1F
100
AcDbEntity
  8
0
  6
Continuous
 62
     7
370
    25
100
AcDbLine
 10
94.0773721293
 20
352.2098877641
 30
0.0
 11
94.0773721293
 21
246.2098877641
 31
0.0
  0
LINE
  5
99
330
1F
100
AcDbEntity
  8
0
  6
Continuous
 62
     7
370
    25
100
AcDbLine
 10
208.5773721293
 20
212.2098877641
 30
0.0
 11
69.5773721293
 21
212.2098877641
 31
0.0
  0
LINE
  5
9A
330
1F
100
AcDbEntity
  8
0
  6
Continuous
 62
     7
370
    25
100
AcDbLine
 10
208.5773721293
 20
229.2098877641
 30
0.0
 11
69.5773721293
 21
229.2098877641
 31
0.0
  0
LINE
  5
9B
330
1F
100
AcDbEntity
  8
0
  6
Continuous
 62
     7
370
    25
100
AcDbLine
 10
184.0773721293
 20
246.2098877641
 30
0.0
 11
94.0773721293
 21
246.2098877641
 31
0.0
  0
LINE
  5
9C
330
1F
100
AcDbEntity
  8
0
  6
Continuous
 62
     7
370
    25
100
AcDbLine
 10
184.0773721293
 20
352.2098877641
 30
0.0
 11
94.0773721293
 21
352.2098877641
 31
0.0
  0
LINE
  5
9D
330
1F
100
AcDbEntity
  8
0
  6
Continuous
 62
     7
370
    25
100
AcDbLine
 10
300.2503181364
 20
35.9651535162
 30
0.0
 11
317.2503181364
 21
35.9651535162
 31
0.0
  0
LINE
  5
9E
330
1F
100
AcDbEntity
  8
0
  6
Continuous
 62
     7
370
    25
100
AcDbLine
 10
317.2503181364
 20
174.9651535162
 30
0.0
 11
300.2503181364
 21
174.9651535162
 31
0.0
  0
LINE
  5
9F
330
1F
100
AcDbEntity
  8
0
  6
Continuous
 62
     7
370
    25
100
AcDbLine
 10
317.2503181364
 20
51.4651535162
 30
0.0
 11
334.2503181364
 21
60.4651535162
 31
0.0
  0
LINE
  5
A0
330
1F
100
AcDbEntity
  8
0
  6
Continuous
 62
     7
370
    25
100
AcDbLine
 10
334.2503181364
 20
150.4651535162
 30
0.0
 11
317.2503181364
 21
159.4651535162
 31
0.0
  0
LINE
  5
A1
330
1F
100
AcDbEntity
  8
0
  6
Continuous
 62
     7
370
    25
100
AcDbLine
 10
334.2503181364
 20
60.4651535162
 30
0.0
 11
440.2503181364
 21
60.4651535162
 31
0.0
  0
LINE
  5
A2
330
1F
100
AcDbEntity
  8
0
  6
Continuous
 62
     7
370
    25
100
AcDbLine
 10
440.2503181364
 20
150.4651535162
 30
0.0
 11
334.2503181364
 21
150.4651535162
 31
0.0
  0
LINE
  5
A3
330
1F
100
AcDbEntity
  8
0
  6
Continuous
 62
     7
370
    25
100
AcDbLine
 10
300.2503181364
 20
105.4651535162
 30
0.0
 11
300.2503181364
 21
174.9651535162
 31
0.0
  0
LINE
  5
A4
330
1F
100
AcDbEntity
  8
0
  6
Continuous
 62
     7
370
    25
100
AcDbLine
 10
300.2503181364
 20
35.9651535162
 30
0.0
 11
300.2503181364
 21
105.4651535162
 31
0.0
  0
LINE
  5
A5
330
1F
100
AcDbEntity
  8
0
  6
Continuous
 62
     7
370
    25
100
AcDbLine
 10
317.2503181364
 20
105.4651535162
 30
0.0
 11
317.2503181364
 21
174.9651535162
 31
0.0
  0
LINE
  5
A6
330
1F
100
AcDbEntity
  8
0
  6
Continuous
 62
     7
370
    25
100
AcDbLine
 10
317.2503181364
 20
35.9651535162
 30
0.0
 11
317.2503181364
 21
105.4651535162
 31
0.0
  0
LINE
  5
A7
330
1F
100
AcDbEntity
  8
0
  6
Continuous
 62
     7
370
    25
100
AcDbLine
 10
334.2503181364
 20
105.4651535162
 30
0.0
 11
334.2503181364
 21
150.4651535162
 31
0.0
  0
LINE
  5
A8
330
1F
100
AcDbEntity
  8
0
  6
Continuous
 62
     7
370
    25
100
AcDbLine
 10
334.2503181364
 20
60.4651535162
 30
0.0
 11
334.2503181364
 21
105.4651535162
 31
0.0
  0
LINE
  5
A9
330
1F
100
AcDbEntity
  8
0
  6
Continuous
 62
     7
370
    25
100
AcDbLine
 10
440.2503181364
 20
105.4651535162
 30
0.0
 11
440.2503181364
 21
150.4651535162
 31
0.0
  0
LINE
  5
AA
330
1F
100
AcDbEntity
  8
0
  6
Continuous
 62
     7
370
    25
100
AcDbLine
 10
440.2503181364
 20
60.4651535162
 30
0.0
 11
440.2503181364
 21
105.4651535162
 31
0.0
  0
LINE
  5
AB
330
1F
100
AcDbEntity
  8
0
  6
Continuous
 62
     7
370
    25
100
AcDbLine
 10
69.5773721293
 20
4.7545343702
 30
0.0
 11
69.5773721293
 21
-12.2454656298
 31
0.0
  0
LINE
  5
AC
330
1F
100
AcDbEntity
  8
0
  6
Continuous
 62
     7
370
    25
100
AcDbLine
 10
208.5773721293
 20
-12.2454656298
 30
0.0
 11
208.5773721293
 21
4.7545343702
 31
0.0
  0
LINE
  5
AD
330
1F
100
AcDbEntity
  8
0
  6
Continuous
 62
     7
370
    25
100
AcDbLine
 10
85.0773721293
 20
-12.2454656298
 30
0.0
 11
94.0773721293
 21
-29.2454656298
 31
0.0
  0
LINE
  5
AE
330
1F
100
AcDbEntity
  8
0
  6
Continuous
 62
     7
370
    25
100
AcDbLine
 10
184.0773721293
 20
-29.2454656298
 30
0.0
 11
193.0773721293
 21
-12.2454656298
 31
0.0
  0
LINE
  5
AF
330
1F
100
AcDbEntity
  8
0
  6
Continuous
 62
     7
370
    25
100
AcDbLine
 10
94.0773721293
 20
-29.2454656298
 30
0.0
 11
94.0773721293
 21
-135.2454656298
 31
0.0
  0
LINE
  5
B0
330
1F
100
AcDbEntity
  8
0
  6
Continuous
 62
     7
370
    25
100
AcDbLine
 10
184.0773721293
 20
-135.2454656298
 30
0.0
 11
184.0773721293
 21
-29.2454656298
 31
0.0
  0
LINE
  5
B1
330
1F
100
AcDbEntity
  8
0
  6
Continuous
 62
     7
370
    25
100
AcDbLine
 10
69.5773721293
 20
4.7545343702
 30
0.0
 11
208.5773721293
 21
4.7545343702
 31
0.0
  0
LINE
  5
B2
330
1F
100
AcDbEntity
  8
0
  6
Continuous
 62
     7
370
    25
100
AcDbLine
 10
69.5773721293
 20
-12.2454656298
 30
0.0
 11
208.5773721293
 21
-12.2454656298
 31
0.0
  0
LINE
  5
B3
330
1F
100
AcDbEntity
  8
0
  6
Continuous
 62
     7
370
    25
100
AcDbLine
 10
94.0773721293
 20
-29.2454656298
 30
0.0
 11
184.0773721293
 21
-29.2454656298
 31
0.0
  0
LINE
  5
B4
330
1F
100
AcDbEntity
  8
0
  6
Continuous
 62
     7
370
    25
100
AcDbLine
 10
94.0773721293
 20
-135.2454656298
 30
0.0
 11
184.0773721293
 21
-135.2454656298
 31
0.0
  0
LINE
  5
B5
330
1F
100
AcDbEntity
  8
0
  6
Continuous
 62
     7
370
    25
100
AcDbLine
 10
-25.994340766
 20
174.9651535162
 30
0.0
 11
-42.994340766
 21
174.9651535162
 31
0.0
  0
LINE
  5
B6
330
1F
100
AcDbEntity
  8
0
  6
Continuous
 62
     7
370
    25
100
AcDbLine
 10
-42.994340766
 20
35.9651535162
 30
0.0
 11
-25.994340766
 21
35.9651535162
 31
0.0
  0
LINE
  5
B7
330
1F
100
AcDbEntity
  8
0
  6
Continuous
 62
     7
370
    25
100
AcDbLine
 10
-42.994340766
 20
159.4651535162
 30
0.0
 11
-59.994340766
 21
150.4651535162
 31
0.0
  0
LINE
  5
B8
330
1F
100
AcDbEntity
  8
0
  6
Continuous
 62
     7
370
    25
100
AcDbLine
 10
-59.994340766
 20
60.4651535162
 30
0.0
 11
-42.994340766
 21
51.4651535162
 31
0.0
  0
LINE
  5
B9
330
1F
100
AcDbEntity
  8
0
  6
Continuous
 62
     7
370
    25
100
AcDbLine
 10
-59.994340766
 20
150.4651535162
 30
0.0
 11
-165.994340766
 21
150.4651535162
 31
0.0
  0
LINE
  5
BA
330
1F
100
AcDbEntity
  8
0
  6
Continuous
 62
     7
370
    25
100
AcDbLine
 10
-165.994340766
 20
60.4651535162
 30
0.0
 11
-59.994340766
 21
60.4651535162
 31
0.0
  0
LINE
  5
BB
330
1F
100
AcDbEntity
  8
0
  6
Continuous
 62
     7
370
    25
100
AcDbLine
 10
-25.994340766
 20
174.9651535162
 30
0.0
 11
-25.994340766
 21
35.9651535162
 31
0.0
  0
LINE
  5
BC
330
1F
100
AcDbEntity
  8
0
  6
Continuous
 62
     7
370
    25
100
AcDbLine
 10
-42.994340766
 20
174.9651535162
 30
0.0
 11
-42.994340766
 21
35.9651535162
 31
0.0
  0
LINE
  5
BD
330
1F
100
AcDbEntity
  8
0
  6
Continuous
 62
     7
370
    25
100
AcDbLine
 10
-59.994340766
 20
150.4651535162
 30
0.0
 11
-59.994340766
 21
60.4651535162
 31
0.0
  0
LINE
  5
BE
330
1F
100
AcDbEntity
  8
0
  6
Continuous
 62
     7
370
    25
100
AcDbLine
 10
-165.994340766
 20
150.4651535162
 30
0.0
 11
-165.994340766
 21
60.4651535162
 31
0.0
  0
LINE
  5
BF
330
1F
100
AcDbEntity
  8
0
  6
Continuous
 62
     7
370
    25
100
AcDbLine
 10
327.3446726967
 20
-18.1340407985
 30
0.0
 11
252.3913538909
 21
-61.4036707251
 31
0.0
  0
LINE
  5
C0
330
1F
100
AcDbEntity
  8
0
  6
Continuous
 62
     7
370
    25
100
AcDbLine
 10
297.3876968595
 20
-139.3480683393
 30
0.0
 11
372.3410156653
 21
-96.0784384127
 31
0.0
  0
LINE
  5
C1
330
1F
100
AcDbEntity
  8
0
  6
Continuous
 62
     7
370
    25
100
AcDbLine
 10
339.1372987822
 20
16.9630942309
 30
0.0
 11
327.1164835021
 21
10.0236252804
 31
0.0
  0
LINE
  5
C2
330
1F
100
AcDbEntity
  8
0
  6
Continuous
 62
     7
370
    25
100
AcDbLine
 10
396.6108354203
 20
-110.3571665906
 30
0.0
 11
408.6316507004
 21
-103.4176976401
 31
0.0
  0
LINE
  5
C3
330
1F
100
AcDbEntity
  8
0
  6
Continuous
 62
     7
370
    25
100
AcDbLine
 10
326.720160445
 20
-12.6371037967
 30
0.0
 11
322.9736001637
 21
-20.6574072604
 31
0.0
  0
LINE
  5
C4
330
1F
100
AcDbEntity
  8
0
  6
Continuous
 62
     7
370
    25
100
AcDbLine
 10
367.9699431323
 20
-98.6018048746
 30
0.0
 11
376.7889379433
 21
-99.368167788
 31
0.0
  0
LWPOLYLINE
  5
C5
330
1F
100
AcDbEntity
  8
0
  6
Continuous
 62
     7
370
    25
100
AcDbPolyline
 90
       54
 70
   128
 43
0.0
 10
327.3446726967
 20
-18.1340407985
 10
327.5150641958
 20
-18.0371544328
 10
328.9387034449
 20
-17.3358465026
 10
330.4401074706
 20
-16.7824870468
 10
332.0136909512
 20
-16.379134599
 10
333.6536000528
 20
-16.1272896568
 10
335.3537342059
 20
-16.0278890999
 10
337.1077687997
 20
-16.081302705
 10
338.9091787104
 20
-16.2873317698
 10
340.7512625748
 20
-16.6452098528
 10
342.6271677199
 20
-17.1536056239
 10
344.5299156554
 20
-17.8106278176
 10
346.4524280339
 20
-18.613832268
 10
348.3875529832
 20
-19.5602310019
 10
350.3280917113
 20
-20.6463033539
 10
352.2668252867
 20
-21.8680090634
 10
354.1965414933
 20
-23.220803305
 10
356.1100616598
 20
-24.6996535953
 10
358.0002673657
 20
-26.2990585139
 10
359.8601269216
 20
-28.0130681697
 10
361.6827215278
 20
-29.835306334
 10
363.4612710125
 20
-31.7589941613
 10
365.189159055
 20
-33.7769754064
 10
366.8599577982
 20
-35.8817430466
 10
368.4674517611
 20
-38.0654672081
 10
370.0056609605
 20
-40.3200242934
 10
371.4688631572
 20
-42.6370272023
 10
372.8516151429
 20
-45.0078565316
 10
374.1487729894
 20
-47.4236926406
 10
375.3555111843
 20
-49.8755484603
 10
376.4673405823
 20
-52.3543029259
 10
377.480125105
 20
-54.8507349081
 10
378.3900971274
 20
-57.3555575159
 10
379.1938714938
 20
-59.8594526447
 10
379.8884581109
 20
-62.3531056402
 10
380.4712730707
 20
-64.8272399494
 10
380.9401482634
 20
-67.2726516302
 10
381.2933394425
 20
-69.6802435905
 10
381.5295327135
 20
-72.0410594302
 10
381.6478494219
 20
-74.3463167592
 10
381.6478494219
 20
-76.5874398688
 10
381.5295327135
 20
-78.7560916339
 10
381.2933394425
 20
-80.8442045276
 10
380.9401482634
 20
-82.8440106326
 10
380.4712730707
 20
-84.7480705389
 10
379.8884581109
 20
-86.5493010186
 10
379.1938714938
 20
-88.241001376
 10
378.3900971274
 20
-89.8168783748
 10
377.480125105
 20
-91.2710696488
 10
376.4673405823
 20
-92.5981655111
 10
375.3555111843
 20
-93.793229078
 10
374.1487729894
 20
-94.8518146344
 10
372.8516151429
 20
-95.7699841726
 10
372.3410156653
 20
-96.0784384127
  0
LWPOLYLINE
  5
C6
330
1F
100
AcDbEntity
  8
0
  6
Continuous
 62
     7
370
    25
100
AcDbPolyline
 90
      104
 70
   128
 43
0.0
 10
243.0697202218
 20
-82.0066870162
 10
243.1289061044
 20
-79.8007735723
 10
243.3062435767
 20
-77.6714008368
 10
243.6010729316
 20
-75.6264902161
 10
244.0122973847
 20
-73.673648912
 10
244.538387154
 20
-71.8201416224
 10
245.1773851509
 20
-70.0728635161
 10
245.9269142609
 20
-68.4383145826
 10
246.7841861865
 20
-66.9225754511
 10
247.7460118199
 20
-65.5312847708
 10
248.8088131065
 20
-64.2696182344
 10
249.9686363557
 20
-63.1422693244
 10
251.2211669489
 20
-62.1534318526
 10
252.56174539
 20
-61.3067843594
 10
253.9853846391
 20
-60.6054764292
 10
255.4867886648
 20
-60.0521169734
 10
257.0603721454
 20
-59.6487645256
 10
258.700281247
 20
-59.3969195834
 10
260.4004154001
 20
-59.2975190265
 10
262.1544499939
 20
-59.3509326316
 10
263.9558599047
 20
-59.5569616964
 10
265.797943769
 20
-59.9148397794
 10
267.6738489141
 20
-60.4232355505
 10
269.5765968496
 20
-61.0802577442
 10
271.4991092281
 20
-61.8834621946
 10
273.4342341774
 20
-62.8298609285
 10
275.3747729055
 20
-63.9159332805
 10
277.313506481
 20
-65.13763899
 10
279.2432226875
 20
-66.4904332316
 10
281.156742854
 20
-67.9692835219
 10
283.04694856
 20
-69.5686884405
 10
284.9068081158
 20
-71.2826980963
 10
286.729402722
 20
-73.1049362606
 10
288.5079522068
 20
-75.0286240879
 10
290.2358402492
 20
-77.046605333
 10
291.9066389925
 20
-79.1513729732
 10
293.5141329553
 20
-81.3350971347
 10
295.0523421547
 20
-83.58965422
 10
296.5155443514
 20
-85.9066571289
 10
297.8982963371
 20
-88.2774864582
 10
299.1954541836
 20
-90.6933225672
 10
300.4021923785
 20
-93.1451783869
 10
301.5140217765
 20
-95.6239328525
 10
302.5268062992
 20
-98.1203648347
 10
303.4367783216
 20
-100.6251874425
 10
304.240552688
 20
-103.1290825713
 10
304.9351393051
 20
-105.6227355668
 10
305.517954265
 20
-108.096869876
 10
305.9868294577
 20
-110.5422815568
 10
306.3400206367
 20
-112.9498735171
 10
306.5762139077
 20
-115.3106893568
 10
306.6945306161
 20
-117.6159466858
 10
306.6945306161
 20
-119.8570697954
 10
306.5762139077
 20
-122.0257215605
 10
306.3400206367
 20
-124.1138344542
 10
305.9868294577
 20
-126.1136405592
 10
305.517954265
 20
-128.0177004655
 10
304.9351393051
 20
-129.8189309452
 10
304.240552688
 20
-131.5106313026
 10
303.4367783216
 20
-133.0865083014
 10
302.5268062992
 20
-134.5406995754
 10
301.5140217765
 20
-135.8677954377
 10
300.4021923785
 20
-137.0628590046
 10
299.1954541836
 20
-138.121444561
 10
297.8982963371
 20
-139.0396140992
 10
296.5155443514
 20
-139.8139519681
 10
295.0523421547
 20
-140.4415775801
 10
293.5141329553
 20
-140.9201561266
 10
291.9066389925
 20
-141.247907264
 10
290.2358402492
 20
-141.4236117365
 10
288.5079522068
 20
-141.4466159121
 10
286.729402722
 20
-141.3168342136
 10
284.9068081158
 20
-141.0347494374
 10
283.04694856
 20
-140.6014109575
 10
281.156742854
 20
-140.0184308215
 10
279.2432226875
 20
-139.2879777538
 10
277.313506481
 20
-138.4127690877
 10
275.3747729055
 20
-137.396060657
 10
273.4342341774
 20
-136.2416346839
 10
271.4991092281
 20
-134.9537857086
 10
269.5765968496
 20
-133.5373046142
 10
267.6738489141
 20
-131.9974608032
 10
265.797943769
 20
-130.3399825957
 10
263.9558599047
 20
-128.5710359196
 10
262.1544499939
 20
-126.6972013727
 10
260.4004154001
 20
-124.7254497425
 10
258.700281247
 20
-122.6631160746
 10
257.0603721454
 20
-120.5178723858
 10
255.4867886648
 20
-118.2976991235
 10
253.9853846391
 20
-116.0108554779
 10
252.56174539
 20
-113.6658486578
 10
251.2211669489
 20
-111.2714022424
 10
249.9686363557
 20
-108.8364237296
 10
248.8088131065
 20
-106.3699713996
 10
247.7460118199
 20
-103.881220617
 10
246.7841861865
 20
-101.379429698
 10
245.9269142609
 20
-98.8739054694
 10
245.1773851509
 20
-96.3739686457
 10
244.538387154
 20
-93.8889191562
 10
244.0122973847
 20
-91.4280015481
 10
243.6010729316
 20
-89.0003705966
 10
243.3062435767
 20
-86.6150572483
 10
243.1289061044
 20
-84.2809350255
 10
243.0697202218
 20
-82.0066870162
  0
LWPOLYLINE
  5
C7
330
1F
100
AcDbEntity
  8
0
  6
Continuous
 62
     7
370
    25
100
AcDbPolyline
 90
       98
 70
   128
 43
0.0
 10
246.8880968402
 20
-84.2109889181
 10
246.9468207015
 20
-82.151849759
 10
247.1227459769
 20
-80.1691484722
 10
247.4151347747
 20
-78.2712011958
 10
247.8227607148
 20
-76.4659685803
 10
248.3439140722
 20
-74.7610223987
 10
248.9764089486
 20
-73.1635137878
 10
249.7175924408
 20
-71.6801432538
 10
250.5643557676
 20
-70.3171325683
 10
251.5131473093
 20
-69.0801986718
 10
252.5599875045
 20
-67.9745296949
 10
253.7004855416
 20
-67.0047631975
 10
254.9298577754
 20
-66.1749667173
 10
256.2429477917
 20
-65.4886207093
 10
257.6342480345
 20
-64.9486039469
 10
259.097922907
 20
-64.5571814483
 10
260.6278332483
 20
-64.3159949754
 10
262.2175620827
 20
-64.226056148
 10
263.8604415349
 20
-64.287742201
 10
265.5495807977
 20
-64.5007944015
 10
267.2778950338
 20
-64.8643191345
 10
269.0381350929
 20
-65.3767916511
 10
270.8229179162
 20
-66.0360624633
 10
272.6247575046
 20
-66.8393663603
 10
274.4360963164
 20
-67.7833340063
 10
276.2493369673
 20
-68.8640060731
 10
278.0568740957
 20
-70.0768498464
 10
279.851126263
 20
-71.4167782378
 10
281.6245677518
 20
-72.8781711222
 10
283.3697601323
 20
-74.4548989098
 10
285.0793834611
 20
-76.1403482564
 10
286.7462669839
 20
-77.9274498016
 10
288.3634192119
 20
-79.8087078206
 10
289.9240572466
 20
-81.7762316634
 10
291.4216352298
 20
-83.8217688513
 10
292.849871799
 20
-85.9367396903
 10
294.2027764336
 20
-88.1122732579
 10
295.4746745814
 20
-90.3392446101
 10
296.6602314596
 20
-92.6083130553
 10
297.7544744306
 20
-94.9099613317
 10
298.7528138591
 20
-97.2345355266
 10
299.6510623627
 20
-99.5722855681
 10
300.4454523749
 20
-101.91340612
 10
301.132651948
 20
-104.248077709
 10
301.709778728
 20
-106.5665079114
 10
302.1744120449
 20
-108.8589724249
 10
302.5246030648
 20
-111.1158558568
 10
302.7588829651
 20
-113.3276920537
 10
302.8762690943
 20
-115.4852038059
 10
302.8762690943
 20
-117.5793417592
 10
302.7588829651
 20
-119.6013223714
 10
302.5246030648
 20
-121.542664753
 10
302.1744120449
 20
-123.3952262395
 10
301.709778728
 20
-125.1512365442
 10
301.132651948
 20
-126.8033303496
 10
300.4454523749
 20
-128.3445782002
 10
299.6510623627
 20
-129.7685155668
 10
298.7528138591
 20
-131.0691699612
 10
297.7544744306
 20
-132.241085987
 10
296.6602314596
 20
-133.279348221
 10
295.4746745814
 20
-134.1796018306
 10
294.2027764336
 20
-134.9380708393
 10
292.849871799
 20
-135.5515739645
 10
291.4216352298
 20
-136.017537961
 10
289.9240572466
 20
-136.3340084136
 10
288.3634192119
 20
-136.4996579355
 10
286.7462669839
 20
-136.5137917349
 10
285.0793834611
 20
-136.3763505298
 10
283.3697601323
 20
-136.0879107963
 10
281.6245677518
 20
-135.6496823509
 10
279.851126263
 20
-135.0635032761
 10
278.0568740957
 20
-134.3318322105
 10
276.2493369673
 20
-133.457738037
 10
274.4360963164
 20
-132.4448870101
 10
272.6247575046
 20
-131.2975273792
 10
270.8229179162
 20
-130.0204715692
 10
269.0381350929
 20
-128.6190759961
 10
267.2778950338
 20
-127.0992185998
 10
265.5495807977
 20
-125.4672741906
 10
263.8604415349
 20
-123.7300877103
 10
262.2175620827
 20
-121.8949455228
 10
260.6278332483
 20
-119.9695448522
 10
259.097922907
 20
-117.9619614981
 10
257.6342480345
 20
-115.8806159626
 10
256.2429477917
 20
-113.7342381323
 10
254.9298577754
 20
-111.5318306617
 10
253.7004855416
 20
-109.2826312132
 10
252.5599875045
 20
-106.9960737109
 10
251.5131473093
 20
-104.6817487716
 10
250.5643557676
 20
-102.3493634783
 10
249.7175924408
 20
-100.0087006656
 10
248.9764089486
 20
-97.6695778868
 10
248.3439140722
 20
-95.3418062356
 10
247.8227607148
 20
-93.0351491953
 10
247.4151347747
 20
-90.7592816872
 10
247.1227459769
 20
-88.5237494905
 10
246.9468207015
 20
-86.3379292042
 10
246.8880968402
 20
-84.2109889181
  0
LWPOLYLINE
  5
C8
330
1F
100
AcDbEntity
  8
0
  6
Continuous
 62
     7
370
    25
100
AcDbPolyline
 90
       66
 70
   128
 43
0.0
 10
339.1372987822
 20
16.9630942309
 10
340.6465735784
 20
17.7617885598
 10
342.4484341169
 20
18.5407455545
 10
344.3248574707
 20
19.1731955653
 10
346.2713929709
 20
19.6576384908
 10
348.2834236503
 20
19.9929252857
 10
350.3561771945
 20
20.1782606869
 10
352.4847372609
 20
20.2132050992
 10
354.6640551405
 20
20.0976756385
 10
356.8889617317
 20
19.8319463277
 10
359.1541798022
 20
19.4166474474
 10
361.4543365048
 20
18.8527640408
 10
363.7839761221
 20
18.1416335769
 10
366.1375730061
 20
17.2849427787
 10
368.5095446851
 20
16.2847236221
 10
370.8942651045
 20
15.1433485164
 10
373.2860779707
 20
13.8635246772
 10
375.6793101679
 20
12.4482877054
 10
378.0682852138
 20
10.9009943866
 10
380.4473367235
 20
9.2253147297
 10
382.8108218497
 20
7.4252232616
 10
385.1531346667
 20
5.5049896005
 10
387.4687194673
 20
3.4691683284
 10
389.7520839403
 20
1.3225881885
 10
391.9978121973
 20
-0.9296593682
 10
394.2005776191
 20
-3.2822322595
 10
396.3551554894
 20
-5.7295504423
 10
398.4564353876
 20
-8.2658091483
 10
400.4994333098
 20
-10.884992652
 10
402.4793034908
 20
-13.5808885396
 10
404.3913498972
 20
-16.3471024438
 10
406.2310373662
 20
-19.1770732109
 10
407.9940023624
 20
-22.0640884628
 10
409.6760633275
 20
-25.0013005185
 10
411.2732305988
 20
-27.9817426353
 10
412.781715872
 20
-30.9983455338
 10
414.1979411866
 20
-34.0439541653
 10
415.5185474127
 20
-37.1113446826
 10
416.7404022183
 20
-40.1932415743
 10
417.8606074987
 20
-43.2823349213
 10
418.8765062507
 20
-46.3712977357
 10
419.7856888748
 20
-49.4528033388
 10
420.5859988902
 20
-52.5195427399
 10
421.27553805
 20
-55.5642419718
 10
421.8526708434
 20
-58.5796793445
 10
422.3160283753
 20
-61.5587025735
 10
422.6645116128
 20
-64.4942457449
 10
422.8972939921
 20
-67.3793460747
 10
423.0138233792
 20
-70.2071604236
 10
423.0138233792
 20
-72.9709815284
 10
422.8972939921
 20
-75.6642539108
 10
422.6645116128
 20
-78.2805894263
 10
422.3160283753
 20
-80.813782416
 10
421.8526708434
 20
-83.257824426
 10
421.27553805
 20
-85.6069184589
 10
420.5859988902
 20
-87.8554927229
 10
419.7856888748
 20
-89.9982138485
 10
418.8765062507
 20
-92.0299995378
 10
417.8606074987
 20
-93.9460306196
 10
416.7404022183
 20
-95.7417624799
 10
415.5185474127
 20
-97.4129358411
 10
414.1979411866
 20
-98.9555868647
 10
412.781715872
 20
-100.3660565529
 10
411.2732305988
 20
-101.6409994273
 10
409.6760633275
 20
-102.7773914644
 10
408.6316507004
 20
-103.4176976401
  0
LWPOLYLINE
  5
C9
330
1F
100
AcDbEntity
  8
0
  6
Continuous
 62
     7
370
    25
100
AcDbPolyline
 90
      100
 70
   128
 43
0.0
 10
312.7197381687
 20
-21.7965887693
 10
312.7780201446
 20
-19.0672326893
 10
312.9527278339
 20
-16.4116412774
 10
313.2434468493
 20
-13.8361133031
 10
313.6494876373
 20
-11.3467576342
 10
314.1698871141
 20
-8.9494787473
 10
314.8034109496
 20
-6.649962723
 10
315.5485564954
 20
-4.4536637593
 10
316.4035563483
 20
-2.3657912348
 10
317.3663825434
 20
-0.3912973522
 10
318.4347513632
 20
1.4651346069
 10
319.6061287549
 20
3.1991013911
 10
320.8777363407
 20
4.8064902228
 10
322.246558008
 20
6.2834885532
 10
323.709347063
 20
7.6265931055
 10
325.2626339316
 20
8.832618184
 10
326.902734389
 20
9.8987032306
 10
328.6257582982
 20
10.8223196093
 10
330.4276188368
 20
11.601276604
 10
332.3040421906
 20
12.2337266149
 10
334.2505776908
 20
12.7181695403
 10
336.2626083702
 20
13.0534563352
 10
338.3353619143
 20
13.2387917364
 10
340.4639219808
 20
13.2737361488
 10
342.6432398603
 20
13.158206688
 10
344.8681464516
 20
12.8924773772
 10
347.133364522
 20
12.4771784969
 10
349.4335212247
 20
11.9132950903
 10
351.7631608419
 20
11.2021646265
 10
354.1167577259
 20
10.3454738283
 10
356.488729405
 20
9.3452546716
 10
358.8734498243
 20
8.2038795659
 10
361.2652626905
 20
6.9240557267
 10
363.6584948877
 20
5.5088187549
 10
366.0474699337
 20
3.9615254361
 10
368.4265214434
 20
2.2858457792
 10
370.7900065695
 20
0.4857543111
 10
373.1323193865
 20
-1.43447935
 10
375.4479041872
 20
-3.4703006221
 10
377.7312686601
 20
-5.616880762
 10
379.9769969172
 20
-7.8691283187
 10
382.1797623389
 20
-10.22170121
 10
384.3343402092
 20
-12.6690193928
 10
386.4356201074
 20
-15.2052780988
 10
388.4786180297
 20
-17.8244616025
 10
390.4584882107
 20
-20.5203574901
 10
392.3705346171
 20
-23.2865713943
 10
394.2102220861
 20
-26.1165421614
 10
395.9731870822
 20
-29.0035574133
 10
397.6552480473
 20
-31.940769469
 10
399.2524153186
 20
-34.9212115858
 10
400.7609005918
 20
-37.9378144843
 10
402.1771259064
 20
-40.9834231158
 10
403.4977321326
 20
-44.0508136331
 10
404.7195869381
 20
-47.1327105248
 10
405.8397922185
 20
-50.2218038718
 10
406.8556909705
 20
-53.3107666862
 10
407.7648735946
 20
-56.3922722893
 10
408.56518361
 20
-59.4590116904
 10
409.2547227698
 20
-62.5037109223
 10
409.8318555632
 20
-65.5191482949
 10
410.2952130952
 20
-68.498171524
 10
410.6436963326
 20
-71.4337146954
 10
410.876478712
 20
-74.3188150252
 10
410.993008099
 20
-77.1466293741
 10
410.993008099
 20
-79.9104504789
 10
410.876478712
 20
-82.6037228613
 10
410.6436963326
 20
-85.2200583767
 10
410.2952130951
 20
-87.7532513665
 10
409.8318555632
 20
-90.1972933765
 10
409.2547227698
 20
-92.5463874094
 10
408.56518361
 20
-94.7949616734
 10
407.7648735946
 20
-96.937682799
 10
406.8556909705
 20
-98.9694684883
 10
405.8397922185
 20
-100.8854995701
 10
404.7195869381
 20
-102.6812314304
 10
403.4977321326
 20
-104.3524047916
 10
402.1771259064
 20
-105.8950558152
 10
400.7609005918
 20
-107.3055255034
 10
399.2524153186
 20
-108.5804683778
 10
397.6552480473
 20
-109.7168604149
 10
395.9731870822
 20
-110.7120062182
 10
394.2102220861
 20
-111.563545412
 10
392.3705346171
 20
-112.2694582392
 10
390.4584882107
 20
-112.8280703527
 10
388.4786180297
 20
-113.2380567862
 10
386.4356201074
 20
-113.4984450972
 10
384.3343402092
 20
-113.6086176735
 10
382.1797623389
 20
-113.5683131978
 10
379.9769969172
 20
-113.3776272679
 10
377.7312686601
 20
-113.0370121697
 10
375.4479041872
 20
-112.5472758047
 10
373.1323193865
 20
-111.9095797733
 10
370.7900065695
 20
-111.1254366202
 10
368.4265214434
 20
-110.1967062462
 10
366.0474699337
 20
-109.1255914972
 10
363.6584948877
 20
-107.9146329391
 10
361.2652626905
 20
-106.5667028316
 10
358.8734498243
 20
-105.0849983163
 10
357.87737356
 20
-104.4281212721
  0
LWPOLYLINE
  5
CA
330
1F
100
AcDbEntity
  8
0
  6
Continuous
 62
     7
370
    25
100
AcDbPolyline
 90
        3
 70
   128
 43
0.0
 10
312.8810305913
 20
-26.4837236579
 10
312.7780201446
 20
-24.5932357863
 10
312.7197381687
 20
-21.7965887693
  0
LWPOLYLINE
  5
CB
330
1F
100
AcDbEntity
  8
0
  6
Continuous
 62
     7
370
    25
100
AcDbPolyline
 90
       72
 70
   128
 43
0.0
 10
326.720160445
 20
-12.6371037967
 10
327.3957464332
 20
-11.2954753714
 10
328.3621395136
 20
-9.6706831506
 10
329.4320838724
 20
-8.1710620157
 10
330.6022723727
 20
-6.8012472094
 10
331.869088029
 20
-5.5654727509
 10
333.2286151866
 20
-4.4675583483
 10
334.6766516251
 20
-3.510897592
 10
336.2087215468
 20
-2.6984474656
 10
337.8200894114
 20
-2.0327192059
 10
339.5057745731
 20
-1.5157705407
 10
341.2605666757
 20
-1.1491993288
 10
343.0790417574
 20
-0.9341386208
 10
344.955579016
 20
-0.8712531571
 10
346.8843781822
 20
-0.9607373129
 10
348.8594774484
 20
-1.2023144978
 10
350.874771896
 20
-1.5952380108
 10
352.9240323653
 20
-2.1382933476
 10
355.0009247097
 20
-2.8298019553
 10
357.0990293738
 20
-3.6676264206
 10
359.2118612366
 20
-4.6491770759
 10
361.3328896556
 20
-5.7714200044
 10
363.4555586537
 20
-7.0308864176
 10
365.5733071827
 20
-8.423683377
 10
367.6795894031
 20
-9.945505827
 10
369.7678949174
 20
-11.5916499015
 10
371.8317688929
 20
-13.3570274637
 10
373.8648320133
 20
-15.2361818326
 10
375.8608001972
 20
-17.2233046497
 10
377.8135040211
 20
-19.3122538324
 10
379.7169077896
 20
-21.4965725583
 10
381.5651281907
 20
-23.7695092236
 10
383.3524524809
 20
-26.1240383111
 10
385.0733561434
 20
-28.5528821065
 10
386.7225199635
 20
-31.0485331928
 10
388.2948464705
 20
-33.6032776554
 10
389.7854756931
 20
-36.2092189257
 10
391.1898001818
 20
-38.8583021885
 10
392.5034792502
 20
-41.5423392793
 10
393.7224523915
 20
-44.2530339932
 10
394.8429518297
 20
-46.9820077282
 10
395.8615141651
 20
-49.720825383
 10
396.7749910799
 20
-52.461021429
 10
397.5805590694
 20
-55.1941260773
 10
398.275728169
 20
-57.9116914582
 10
398.858349651
 20
-60.6053177326
 10
399.3266226657
 20
-63.2666790563
 10
399.679099808
 20
-65.8875493138
 10
399.9146915913
 20
-68.4598275455
 10
400.032669815
 20
-70.9755629866
 10
400.032669815
 20
-73.4269796431
 10
399.9146915913
 20
-75.8065003266
 10
399.679099808
 20
-78.106770075
 10
399.3266226657
 20
-80.3206788865
 10
398.858349651
 20
-82.4413836956
 10
398.275728169
 20
-84.4623295254
 10
397.5805590694
 20
-86.3772697481
 10
396.7749910799
 20
-88.1802853933
 10
395.8615141651
 20
-89.8658034429
 10
394.8429518297
 20
-91.4286140572
 10
393.7224523915
 20
-92.8638866782
 10
392.5034792502
 20
-94.1671849604
 10
391.1898001818
 20
-95.3344804835
 10
389.7854756931
 20
-96.3621652041
 10
388.2948464705
 20
-97.2470626074
 10
386.7225199635
 20
-97.9864375264
 10
385.0733561434
 20
-98.5780045955
 10
383.3524524809
 20
-99.0199353148
 10
381.5651281907
 20
-99.3108637018
 10
379.7169077896
 20
-99.4498905136
 10
377.8135040211
 20
-99.4365860261
 10
376.7889379433
 20
-99.368167788
  0
ENDSEC
  0
SECTION
  2
OBJECTS
  0
DICTIONARY
  5
C
330
0
100
AcDbDictionary
281
     1
  3
ACAD_GROUP
350
D
  3
ACAD_LAYOUT
350
1A
  3
ACAD_MLINESTYLE
350
17
  3
ACAD_PLOTSETTINGS
350
19
  3
ACAD_PLOTSTYLENAME
350
E
  3
ACAD_SCALELIST
350
47
  0
DICTIONARY
  5
D
102
{ACAD_REACTORS
330
C
102
}
330
C
100
AcDbDictionary
281
     1
  0
DICTIONARY
  5
1A
102
{ACAD_REACTORS
330
C
102
}
330
C
100
AcDbDictionary
281
     1
  3
Layout1
350
1E
  3
Layout2
350
26
  3
Model
350
22
  0
DICTIONARY
  5
17
102
{ACAD_REACTORS
330
C
102
}
330
C
100
AcDbDictionary
281
     1
  3
Standard
350
18
  0
DICTIONARY
  5
19
102
{ACAD_REACTORS
330
C
102
}
330
C
100
AcDbDictionary
281
     1
  0
ACDBDICTIONARYWDFLT
  5
E
102
{ACAD_REACTORS
330
C
102
}
330
C
100
AcDbDictionary
281
     1
  3
Normal
350
F
100
AcDbDictionaryWithDefault
340
F
  0
DICTIONARY
  5
47
102
{ACAD_REACTORS
330
C
102
}
330
C
100
AcDbDictionary
281
     1
  3
A0
350
48
  3
A1
350
49
  3
A2
350
4A
  3
A3
350
4B
  3
A4
350
4C
  3
A5
350
4D
  3
A6
350
4E
  3
A7
350
4F
  3
A8
350
50
  3
A9
350
51
  3
B0
350
52
  3
B1
350
53
  3
B2
350
54
  3
B3
350
55
  3
B4
350
56
  3
B5
350
57
  3
B6
350
58
  3
B7
350
59
  3
B8
350
5A
  3
B9
350
5B
  3
C0
350
5C
  3
C1
350
5D
  3
C2
350
5E
  3
C3
350
5F
  3
C4
350
60
  3
C5
350
61
  3
C6
350
62
  3
C7
350
63
  3
C8
350
64
  3
C9
350
65
  3
D0
350
66
  3
D1
350
67
  3
D2
350
68
  0
LAYOUT
  5
1E
102
{ACAD_REACTORS
330
1A
102
}
330
1A
100
AcDbPlotSettings
  1

  2
none_device
  4

  6

 40
0.0
 41
0.0
 42
0.0
 43
0.0
 44
0.0
 45
0.0
 46
0.0
 47
0.0
 48
0.0
 49
0.0
140
0.0
141
0.0
142
1.0
143
1.0
 70
   688
 72
     1
 73
     0
 74
     5
  7

 75
    16
147
1.0
148
0.0
149
0.0
100
AcDbLayout
  1
Layout1
 70
     1
 71
     1
 10
0.0
 20
0.0
 11
420.0
 21
297.0
 12
0.0
 22
0.0
 32
0.0
 14
1.0000000000E+20
 24
1.0000000000E+20
 34
1.0000000000E+20
 15
-1.0000000000E+20
 25
-1.0000000000E+20
 35
-1.0000000000E+20
146
0.0
 13
0.0
 23
0.0
 33
0.0
 16
1.0
 26
0.0
 36
0.0
 17
0.0
 27
1.0
 37
0.0
 76
     0
330
1B
  0
LAYOUT
  5
26
102
{ACAD_REACTORS
330
1A
102
}
330
1A
100
AcDbPlotSettings
  1

  2
none_device
  4

  6

 40
0.0
 41
0.0
 42
0.0
 43
0.0
 44
0.0
 45
0.0
 46
0.0
 47
0.0
 48
0.0
 49
0.0
140
0.0
141
0.0
142
1.0
143
1.0
 70
   688
 72
     1
 73
     0
 74
     5
  7

 75
    16
147
1.0
148
0.0
149
0.0
100
AcDbLayout
  1
Layout2
 70
     1
 71
     2
 10
0.0
 20
0.0
 11
0.0
 21
0.0
 12
0.0
 22
0.0
 32
0.0
 14
0.0
 24
0.0
 34
0.0
 15
0.0
 25
0.0
 35
0.0
146
0.0
 13
0.0
 23
0.0
 33
0.0
 16
1.0
 26
0.0
 36
0.0
 17
0.0
 27
1.0
 37
0.0
 76
     0
330
23
  0
LAYOUT
  5
22
102
{ACAD_REACTORS
330
1A
102
}
330
1A
100
AcDbPlotSettings
  1

  2
none_device
  4
Letter_(8.50_x_11.00_Inches)
  6

 40
6.35
 41
6.35
 42
6.35000508
 43
6.35000508
 44
215.9
 45
279.4
 46
0.0
 47
0.0
 48
0.0
 49
0.0
140
0.0
141
0.0
142
1.0
143
1.0
 70
  1712
 72
     1
 73
     0
 74
     0
  7

 75
     0
147
1.0
148
0.0
149
0.0
100
AcDbLayout
  1
Model
 70
     1
 71
     0
 10
0.0
 20
0.0
 11
279.4
 21
215.9
 12
0.0
 22
0.0
 32
0.0
 14
0.0
 24
0.0
 34
0.0
 15
279.4
 25
215.9
 35
0.0
146
0.0
 13
0.0
 23
0.0
 33
0.0
 16
1.0
 26
0.0
 36
0.0
 17
0.0
 27
1.0
 37
0.0
 76
     0
330
1F
331
29
  0
MLINESTYLE
  5
18
102
{ACAD_REACTORS
330
17
102
}
330
17
100
AcDbMlineStyle
  2
Standard
 70
     0
  3

 62
   256
 51
90.0
 52
90.0
 71
     2
 49
0.5
 62
   256
  6
BYLAYER
 49
-0.5
 62
   256
  6
BYLAYER
  0
ACDBPLACEHOLDER
  5
F
102
{ACAD_REACTORS
330
E
102
}
330
E
  0
SCALE
  5
48
102
{ACAD_REACTORS
330
47
102
}
330
47
100
AcDbScale
 70
     0
300
1:1
140
1.0
141
1.0
290
     1
  0
SCALE
  5
49
102
{ACAD_REACTORS
330
47
102
}
330
47
100
AcDbScale
 70
     0
300
1:2
140
1.0
141
2.0
290
     0
  0
SCALE
  5
4A
102
{ACAD_REACTORS
330
47
102
}
330
47
100
AcDbScale
 70
     0
300
1:4
140
1.0
141
4.0
290
     0
  0
SCALE
  5
4B
102
{ACAD_REACTORS
330
47
102
}
330
47
100
AcDbScale
 70
     0
300
1:5
140
1.0
141
5.0
290
     0
  0
SCALE
  5
4C
102
{ACAD_REACTORS
330
47
102
}
330
47
100
AcDbScale
 70
     0
300
1:8
140
1.0
141
8.0
290
     0
  0
SCALE
  5
4D
102
{ACAD_REACTORS
330
47
102
}
330
47
100
AcDbScale
 70
     0
300
1:10
140
1.0
141
10.0
290
     0
  0
SCALE
  5
4E
102
{ACAD_REACTORS
330
47
102
}
330
47
100
AcDbScale
 70
     0
300
1:16
140
1.0
141
16.0
290
     0
  0
SCALE
  5
4F
102
{ACAD_REACTORS
330
47
102
}
330
47
100
AcDbScale
 70
     0
300
1:20
140
1.0
141
20.0
290
     0
  0
SCALE
  5
50
102
{ACAD_REACTORS
330
47
102
}
330
47
100
AcDbScale
 70
     0
300
1:30
140
1.0
141
30.0
290
     0
  0
SCALE
  5
51
102
{ACAD_REACTORS
330
47
102
}
330
47
100
AcDbScale
 70
     0
300
1:40
140
1.0
141
40.0
290
     0
  0
SCALE
  5
52
102
{ACAD_REACTORS
330
47
102
}
330
47
100
AcDbScale
 70
     0
300
1:50
140
1.0
141
50.0
290
     0
  0
SCALE
  5
53
102
{ACAD_REACTORS
330
47
102
}
330
47
100
AcDbScale
 70
     0
300
1:100
140
1.0
141
100.0
290
     0
  0
SCALE
  5
54
102
{ACAD_REACTORS
330
47
102
}
330
47
100
AcDbScale
 70
     0
300
2:1
140
2.0
141
1.0
290
     0
  0
SCALE
  5
55
102
{ACAD_REACTORS
330
47
102
}
330
47
100
AcDbScale
 70
     0
300
4:1
140
4.0
141
1.0
290
     0
  0
SCALE
  5
56
102
{ACAD_REACTORS
330
47
102
}
330
47
100
AcDbScale
 70
     0
300
8:1
140
8.0
141
1.0
290
     0
  0
SCALE
  5
57
102
{ACAD_REACTORS
330
47
102
}
330
47
100
AcDbScale
 70
     0
300
10:1
140
10.0
141
1.0
290
     0
  0
SCALE
  5
58
102
{ACAD_REACTORS
330
47
102
}
330
47
100
AcDbScale
 70
     0
300
100:1
140
100.0
141
1.0
290
     0
  0
SCALE
  5
59
102
{ACAD_REACTORS
330
47
102
}
330
47
100
AcDbScale
 70
     0
300
1/128" = 1'-0"
140
0.0078125
141
12.0
290
     0
  0
SCALE
  5
5A
102
{ACAD_REACTORS
330
47
102
}
330
47
100
AcDbScale
 70
     0
300
1/64" = 1'-0"
140
0.015625
141
12.0
290
     0
  0
SCALE
  5
5B
102
{ACAD_REACTORS
330
47
102
}
330
47
100
AcDbScale
 70
     0
300
1/32" = 1'-0"
140
0.03125
141
12.0
290
     0
  0
SCALE
  5
5C
102
{ACAD_REACTORS
330
47
102
}
330
47
100
AcDbScale
 70
     0
300
1/16" = 1'-0"
140
0.0625
141
12.0
290
     0
  0
SCALE
  5
5D
102
{ACAD_REACTORS
330
47
102
}
330
47
100
AcDbScale
 70
     0
300
3/32" = 1'-0"
140
0.09375
141
12.0
290
     0
  0
SCALE
  5
5E
102
{ACAD_REACTORS
330
47
102
}
330
47
100
AcDbScale
 70
     0
300
1/8" = 1'-0"
140
0.125
141
12.0
290
     0
  0
SCALE
  5
5F
102
{ACAD_REACTORS
330
47
102
}
330
47
100
AcDbScale
 70
     0
300
3/16" = 1'-0"
140
0.1875
141
12.0
290
     0
  0
SCALE
  5
60
102
{ACAD_REACTORS
330
47
102
}
330
47
100
AcDbScale
 70
     0
300
1/4" = 1'-0"
140
0.25
141
12.0
290
     0
  0
SCALE
  5
61
102
{ACAD_REACTORS
330
47
102
}
330
47
100
AcDbScale
 70
     0
300
3/8" = 1'-0"
140
0.375
141
12.0
290
     0
  0
SCALE
  5
62
102
{ACAD_REACTORS
330
47
102
}
330
47
100
AcDbScale
 70
     0
300
1/2" = 1'-0"
140
0.5
141
12.0
290
     0
  0
SCALE
  5
63
102
{ACAD_REACTORS
330
47
102
}
330
47
100
AcDbScale
 70
     0
300
3/4" = 1'-0"
140
0.75
141
12.0
290
     0
  0
SCALE
  5
64
102
{ACAD_REACTORS
330
47
102
}
330
47
100
AcDbScale
 70
     0
300
1" = 1'-0"
140
1.0
141
12.0
290
     0
  0
SCALE
  5
65
102
{ACAD_REACTORS
330
47
102
}
330
47
100
AcDbScale
 70
     0
300
1-1/2" = 1'-0"
140
1.5
141
12.0
290
     0
  0
SCALE
  5
66
102
{ACAD_REACTORS
330
47
102
}
330
47
100
AcDbScale
 70
     0
300
3" = 1'-0"
140
3.0
141
12.0
290
     0
  0
SCALE
  5
67
102
{ACAD_REACTORS
330
47
102
}
330
47
100
AcDbScale
 70
     0
300
6" = 1'-0"
140
6.0
141
12.0
290
     0
  0
SCALE
  5
68
102
{ACAD_REACTORS
330
47
102
}
330
47
100
AcDbScale
 70
     0
300
1'-0" = 1'-0"
140
12.0
141
12.0
290
     0
  0
ENDSEC
  0
EOF
